ISO-10303-21;
HEADER;
FILE_DESCRIPTION(('Beschreibung'),'1');
FILE_NAME('V:/Ziel/25.80.01.103_SDR_11_PE100_180.STP', '2014-09-15T05:47:05',('Author'), ('Organization'), 'KCM Version 1.1.794.0', 'Kubotek KeyCreator', 'Authorization');
FILE_SCHEMA(('CONFIG_CONTROL_DESIGN'));
ENDSEC;
DATA;
#1=DESIGN_CONTEXT('',#4,'design');
#2=MECHANICAL_CONTEXT('',#4,'mechanical');
#3=APPLICATION_PROTOCOL_DEFINITION('INTERNATIONAL STANDARD','config_control_design',1994,#4);
#4=APPLICATION_CONTEXT('CONFIGURATION CONTROLLED 3D DESIGNS OF MECHANICAL PARTS AND ASSEMBLIES');
#5=DATE_AND_TIME(#8,#9);
#6=DATE_TIME_ROLE('creation_date');
#7=COORDINATED_UNIVERSAL_TIME_OFFSET(5,30,.AHEAD.);
#8=CALENDAR_DATE(2014,9,15);
#9=LOCAL_TIME(05,47,5.00,#7);
#10=DIMENSIONAL_EXPONENTS(1.0,0.0,0.0,0.0,0.0,0.0,0.0);
#11=DIMENSIONAL_EXPONENTS(0.0,0.0,0.0,0.0,0.0,0.0,0.0);
#12= (NAMED_UNIT(#10)LENGTH_UNIT()SI_UNIT(.MILLI.,.METRE.));
#13= (NAMED_UNIT(#11)PLANE_ANGLE_UNIT()SI_UNIT($,.RADIAN.));
#14= (NAMED_UNIT(#11)SOLID_ANGLE_UNIT()SI_UNIT($,.STERADIAN.));
#15=LENGTH_MEASURE_WITH_UNIT(LENGTH_MEASURE(1.0),#12);
#16= (CONVERSION_BASED_UNIT('MILLIMETRE',#15)LENGTH_UNIT()NAMED_UNIT(#10));
#17=UNCERTAINTY_MEASURE_WITH_UNIT(LENGTH_MEASURE(1.0E-006),#16,'','');
#18= (GEOMETRIC_REPRESENTATION_CONTEXT(3)GLOBAL_UNCERTAINTY_ASSIGNED_CONTEXT((#17))GLOBAL_UNIT_ASSIGNED_CONTEXT((#16,#13,#14))REPRESENTATION_CONTEXT('NONE','WORKSPACE'));
#19=DATE_TIME_ROLE('classification_date');
#20=CARTESIAN_POINT('',(0.000000000000000,0.000000000000000,0.000000000000000));
#21=DIRECTION('',(0.000000000000000,0.000000000000000,1.00000000000000));
#22=DIRECTION('',(1.00000000000000,0.000000000000000,0.000000000000000));
#23=AXIS2_PLACEMENT_3D('',#20,#21,#22);
#24=CARTESIAN_POINT('',(31.0000000000000,106.000000000000,0.000000000000000));
#25=VERTEX_POINT('',#24);
#26=CARTESIAN_POINT('',(31.0000000000000,0.000000000000000,0.000000000000000));
#27=DIRECTION('',(1.00000000000000,0.000000000000000,0.000000000000000));
#28=DIRECTION('',(0.000000000000000,1.00000000000000,0.000000000000000));
#29=AXIS2_PLACEMENT_3D('',#26,#27,#28);
#30=CIRCLE('',#29,106.000000000000);
#31=EDGE_CURVE('',#25,#25,#30,.T.);
#32=ORIENTED_EDGE('',*,*,#31,.F.);
#33=CARTESIAN_POINT('',(0.000000000000000,106.000000000000,0.000000000000000));
#34=VERTEX_POINT('',#33);
#35=CARTESIAN_POINT('',(15.5000000000000,106.000000000000,0.000000000000000));
#36=DIRECTION('',(1.00000000000000,0.000000000000000,0.000000000000000));
#37=VECTOR('',#36,106.000000000000);
#38=LINE('',#35,#37);
#39=EDGE_CURVE('',#34,#25,#38,.T.);
#40=ORIENTED_EDGE('',*,*,#39,.F.);
#41=CARTESIAN_POINT('',(0.000000000000000,0.000000000000000,0.000000000000000));
#42=DIRECTION('',(1.00000000000000,0.000000000000000,0.000000000000000));
#43=DIRECTION('',(0.000000000000000,1.00000000000000,0.000000000000000));
#44=AXIS2_PLACEMENT_3D('',#41,#42,#43);
#45=CIRCLE('',#44,106.000000000000);
#46=EDGE_CURVE('',#34,#34,#45,.T.);
#47=ORIENTED_EDGE('',*,*,#46,.T.);
#48=ORIENTED_EDGE('',*,*,#39,.T.);
#49=EDGE_LOOP('',(#32,#40,#47,#48));
#50=FACE_OUTER_BOUND('',#49,.T.);
#51=CARTESIAN_POINT('',(15.5000000000000,0.000000000000000,0.000000000000000));
#52=DIRECTION('',(1.00000000000000,0.000000000000000,0.000000000000000));
#53=DIRECTION('',(0.000000000000000,1.00000000000000,0.000000000000000));
#54=AXIS2_PLACEMENT_3D('',#51,#52,#53);
#55=CYLINDRICAL_SURFACE('',#54,106.000000000000);
#56=ADVANCED_FACE('',(#50),#55,.T.);
#57=ORIENTED_EDGE('',*,*,#31,.T.);
#58=EDGE_LOOP('',(#57));
#59=FACE_OUTER_BOUND('',#58,.T.);
#60=CARTESIAN_POINT('',(31.0000000000000,90.0000000000000,0.000000000000000));
#61=VERTEX_POINT('',#60);
#62=CARTESIAN_POINT('',(31.0000000000000,0.000000000000000,0.000000000000000));
#63=DIRECTION('',(1.00000000000000,0.000000000000000,0.000000000000000));
#64=DIRECTION('',(0.000000000000000,1.00000000000000,0.000000000000000));
#65=AXIS2_PLACEMENT_3D('',#62,#63,#64);
#66=CIRCLE('',#65,90.0000000000000);
#67=EDGE_CURVE('',#61,#61,#66,.T.);
#68=ORIENTED_EDGE('',*,*,#67,.F.);
#69=EDGE_LOOP('',(#68));
#70=FACE_BOUND('',#69,.T.);
#71=CARTESIAN_POINT('',(31.0000000000000,98.0000000000000,0.000000000000000));
#72=DIRECTION('',(1.00000000000000,0.000000000000000,0.000000000000000));
#73=DIRECTION('',(-0.000000000000000,1.00000000000000,-0.000000000000000));
#74=AXIS2_PLACEMENT_3D('',#71,#72,#73);
#75=PLANE('',#74);
#76=ADVANCED_FACE('',(#59,#70),#75,.T.);
#77=CARTESIAN_POINT('',(195.000000000000,90.0000000000000,0.000000000000000));
#78=VERTEX_POINT('',#77);
#79=CARTESIAN_POINT('',(195.000000000000,0.000000000000000,0.000000000000000));
#80=DIRECTION('',(1.00000000000000,0.000000000000000,0.000000000000000));
#81=DIRECTION('',(0.000000000000000,1.00000000000000,0.000000000000000));
#82=AXIS2_PLACEMENT_3D('',#79,#80,#81);
#83=CIRCLE('',#82,90.0000000000000);
#84=EDGE_CURVE('',#78,#78,#83,.T.);
#85=ORIENTED_EDGE('',*,*,#84,.F.);
#86=CARTESIAN_POINT('',(128.000000000000,90.0000000000000,0.000000000000000));
#87=DIRECTION('',(1.00000000000000,0.000000000000000,0.000000000000000));
#88=VECTOR('',#87,90.0000000000000);
#89=LINE('',#86,#88);
#90=EDGE_CURVE('',#61,#78,#89,.T.);
#91=ORIENTED_EDGE('',*,*,#90,.F.);
#92=ORIENTED_EDGE('',*,*,#67,.T.);
#93=ORIENTED_EDGE('',*,*,#90,.T.);
#94=EDGE_LOOP('',(#85,#91,#92,#93));
#95=FACE_OUTER_BOUND('',#94,.T.);
#96=CARTESIAN_POINT('',(128.000000000000,0.000000000000000,0.000000000000000));
#97=DIRECTION('',(1.00000000000000,0.000000000000000,0.000000000000000));
#98=DIRECTION('',(0.000000000000000,1.00000000000000,0.000000000000000));
#99=AXIS2_PLACEMENT_3D('',#96,#97,#98);
#100=CYLINDRICAL_SURFACE('',#99,90.0000000000000);
#101=ADVANCED_FACE('',(#95),#100,.T.);
#102=ORIENTED_EDGE('',*,*,#84,.T.);
#103=EDGE_LOOP('',(#102));
#104=FACE_OUTER_BOUND('',#103,.T.);
#105=CARTESIAN_POINT('',(195.000000000000,73.6000000000000,0.000000000000000));
#106=VERTEX_POINT('',#105);
#107=CARTESIAN_POINT('',(195.000000000000,0.000000000000000,0.000000000000000));
#108=DIRECTION('',(1.00000000000000,0.000000000000000,0.000000000000000));
#109=DIRECTION('',(0.000000000000000,1.00000000000000,0.000000000000000));
#110=AXIS2_PLACEMENT_3D('',#107,#108,#109);
#111=CIRCLE('',#110,73.6000000000000);
#112=EDGE_CURVE('',#106,#106,#111,.T.);
#113=ORIENTED_EDGE('',*,*,#112,.F.);
#114=EDGE_LOOP('',(#113));
#115=FACE_BOUND('',#114,.T.);
#116=CARTESIAN_POINT('',(195.000000000000,81.8000000000000,0.000000000000000));
#117=DIRECTION('',(1.00000000000000,0.000000000000000,0.000000000000000));
#118=DIRECTION('',(-0.000000000000000,1.00000000000000,-0.000000000000000));
#119=AXIS2_PLACEMENT_3D('',#116,#117,#118);
#120=PLANE('',#119);
#121=ADVANCED_FACE('',(#104,#115),#120,.T.);
#122=ORIENTED_EDGE('',*,*,#112,.T.);
#123=CARTESIAN_POINT('',(0.000000000000000,73.6000000000000,0.000000000000000));
#124=VERTEX_POINT('',#123);
#125=CARTESIAN_POINT('',(97.5000000000000,73.6000000000000,0.000000000000000));
#126=DIRECTION('',(1.00000000000000,0.000000000000000,0.000000000000000));
#127=VECTOR('',#126,73.6000000000000);
#128=LINE('',#125,#127);
#129=EDGE_CURVE('',#124,#106,#128,.T.);
#130=ORIENTED_EDGE('',*,*,#129,.F.);
#131=CARTESIAN_POINT('',(0.000000000000000,0.000000000000000,0.000000000000000));
#132=DIRECTION('',(1.00000000000000,0.000000000000000,0.000000000000000));
#133=DIRECTION('',(0.000000000000000,1.00000000000000,0.000000000000000));
#134=AXIS2_PLACEMENT_3D('',#131,#132,#133);
#135=CIRCLE('',#134,73.6000000000000);
#136=EDGE_CURVE('',#124,#124,#135,.T.);
#137=ORIENTED_EDGE('',*,*,#136,.F.);
#138=ORIENTED_EDGE('',*,*,#129,.T.);
#139=EDGE_LOOP('',(#122,#130,#137,#138));
#140=FACE_OUTER_BOUND('',#139,.T.);
#141=CARTESIAN_POINT('',(97.5000000000000,0.000000000000000,0.000000000000000));
#142=DIRECTION('',(1.00000000000000,0.000000000000000,0.000000000000000));
#143=DIRECTION('',(0.000000000000000,1.00000000000000,0.000000000000000));
#144=AXIS2_PLACEMENT_3D('',#141,#142,#143);
#145=CYLINDRICAL_SURFACE('',#144,73.6000000000000);
#146=ADVANCED_FACE('',(#140),#145,.F.);
#147=ORIENTED_EDGE('',*,*,#46,.F.);
#148=EDGE_LOOP('',(#147));
#149=FACE_OUTER_BOUND('',#148,.T.);
#150=ORIENTED_EDGE('',*,*,#136,.T.);
#151=EDGE_LOOP('',(#150));
#152=FACE_BOUND('',#151,.T.);
#153=CARTESIAN_POINT('',(0.000000000000000,89.8000000000000,0.000000000000000));
#154=DIRECTION('',(-1.00000000000000,0.000000000000000,0.000000000000000));
#155=DIRECTION('',(-0.000000000000000,-1.00000000000000,-0.000000000000000));
#156=AXIS2_PLACEMENT_3D('',#153,#154,#155);
#157=PLANE('',#156);
#158=ADVANCED_FACE('',(#149,#152),#157,.T.);
#159=CLOSED_SHELL('',(#56,#76,#101,#121,#146,#158));
#160=MANIFOLD_SOLID_BREP('',#159);
#161=ADVANCED_BREP_SHAPE_REPRESENTATION('',(#160,#23),#18);
#162=APPROVAL_ROLE ( 'APPROVER' ) ;
#163=APPROVAL_STATUS ( 'approved' ) ;
#164=APPROVAL ( #163, 'UNSPECIFIED' ) ;
#165=APPROVAL_DATE_TIME ( #5, #164 ) ;
#166=PERSON_AND_ORGANIZATION_ROLE ('design_owner') ;
#167=PERSON_AND_ORGANIZATION_ROLE ('creator') ;
#168=PERSON_AND_ORGANIZATION_ROLE ('design_supplier') ;
#169=PERSON_AND_ORGANIZATION_ROLE ('classification_officer') ;
#170=PERSON ( 'UNSPECIFIED', 'UNSPECIFIED', 'UNSPECIFIED', ('UNSPECIFIED'), ('UNSPECIFIED'), ('UNSPECIFIED') ) ;
#171=ORGANIZATION ( 'UNSPECIFIED', 'UNSPECIFIED', '' ) ;
#172=PERSON_AND_ORGANIZATION ( #170, #171 ) ;
#173=APPROVAL_PERSON_ORGANIZATION ( #172, #164, #162 ) ;
#174=SECURITY_CLASSIFICATION_LEVEL ( 'unclassified' ) ;
#175=SECURITY_CLASSIFICATION ( ' ', ' ', #174 ) ;
#176=CC_DESIGN_APPROVAL ( #164, (#175)) ;
#177=CC_DESIGN_DATE_AND_TIME_ASSIGNMENT ( #5, #19 ,(#175)) ;
#178=CC_DESIGN_PERSON_AND_ORGANIZATION_ASSIGNMENT (#172, #169, (#175)) ;
#179=PRODUCT('', '', ' ',(#2));
#180=PRODUCT_DEFINITION_FORMATION_WITH_SPECIFIED_SOURCE (' ', ' ', #179, .NOT_KNOWN.) ;
#181=CC_DESIGN_APPROVAL ( #164, (#180)) ;
#182=CC_DESIGN_PERSON_AND_ORGANIZATION_ASSIGNMENT (#172, #167, (#180)) ;
#183=CC_DESIGN_PERSON_AND_ORGANIZATION_ASSIGNMENT (#172, #168, (#180)) ;
#184=CC_DESIGN_SECURITY_CLASSIFICATION ( #175, (#180) ) ;
#185=CC_DESIGN_PERSON_AND_ORGANIZATION_ASSIGNMENT (#172, #166, (#179)) ;
#186=PRODUCT_CATEGORY('part','') ;
#187=PRODUCT_RELATED_PRODUCT_CATEGORY('detail', ' ', (#179)) ;
#188=PRODUCT_CATEGORY_RELATIONSHIP(' ', ' ', #186, #187);
#189=PRODUCT_DEFINITION('', '', #180, #1);
#190=PRODUCT_DEFINITION_SHAPE('NONE', 'NONE', #189);
#191=CC_DESIGN_DATE_AND_TIME_ASSIGNMENT ( #5, #6 ,(#189)) ;
#192=CC_DESIGN_APPROVAL ( #164, (#189)) ;
#193=CC_DESIGN_PERSON_AND_ORGANIZATION_ASSIGNMENT (#172, #167, (#189)) ;
#194=SHAPE_DEFINITION_REPRESENTATION(#190, #161);
#195=CARTESIAN_POINT('',(0.000000000000000,73.6000000000000,0.000000000000000));
#196=DIRECTION('',(0.000000000000000,1.00000000000000,0.000000000000000));
#197=VECTOR('',#196,1.00000000000000);
#198=LINE('',#195,#197);
#199=TRIMMED_CURVE('',#198,(PARAMETER_VALUE(0.000000000000000)),(PARAMETER_VALUE(32.4000000000000)),.T.,.UNSPECIFIED.);
#200=CARTESIAN_POINT('',(0.000000000000000,106.000000000000,0.000000000000000));
#201=DIRECTION('',(1.00000000000000,0.000000000000000,0.000000000000000));
#202=VECTOR('',#201,1.00000000000000);
#203=LINE('',#200,#202);
#204=TRIMMED_CURVE('',#203,(PARAMETER_VALUE(0.000000000000000)),(PARAMETER_VALUE(31.0000000000000)),.T.,.UNSPECIFIED.);
#205=CARTESIAN_POINT('',(31.0000000000000,106.000000000000,0.000000000000000));
#206=DIRECTION('',(0.000000000000000,-1.00000000000000,0.000000000000000));
#207=VECTOR('',#206,1.00000000000000);
#208=LINE('',#205,#207);
#209=TRIMMED_CURVE('',#208,(PARAMETER_VALUE(0.000000000000000)),(PARAMETER_VALUE(16.0000000000000)),.T.,.UNSPECIFIED.);
#210=CARTESIAN_POINT('',(31.0000000000000,90.0000000000000,0.000000000000000));
#211=DIRECTION('',(1.00000000000000,0.000000000000000,0.000000000000000));
#212=VECTOR('',#211,1.00000000000000);
#213=LINE('',#210,#212);
#214=TRIMMED_CURVE('',#213,(PARAMETER_VALUE(0.000000000000000)),(PARAMETER_VALUE(30.0000000000000)),.T.,.UNSPECIFIED.);
#215=CARTESIAN_POINT('',(61.0000000000000,90.0000000000000,0.000000000000000));
#216=DIRECTION('',(1.00000000000000,0.000000000000000,0.000000000000000));
#217=VECTOR('',#216,1.00000000000000);
#218=LINE('',#215,#217);
#219=TRIMMED_CURVE('',#218,(PARAMETER_VALUE(0.000000000000000)),(PARAMETER_VALUE(134.000000000000)),.T.,.UNSPECIFIED.);
#220=CARTESIAN_POINT('',(195.000000000000,90.0000000000000,0.000000000000000));
#221=DIRECTION('',(0.000000000000000,-1.00000000000000,0.000000000000000));
#222=VECTOR('',#221,1.00000000000000);
#223=LINE('',#220,#222);
#224=TRIMMED_CURVE('',#223,(PARAMETER_VALUE(0.000000000000000)),(PARAMETER_VALUE(16.4000000000000)),.T.,.UNSPECIFIED.);
#225=CARTESIAN_POINT('',(195.000000000000,73.6000000000000,0.000000000000000));
#226=DIRECTION('',(-1.00000000000000,0.000000000000000,0.000000000000000));
#227=VECTOR('',#226,1.00000000000000);
#228=LINE('',#225,#227);
#229=TRIMMED_CURVE('',#228,(PARAMETER_VALUE(0.000000000000000)),(PARAMETER_VALUE(195.000000000000)),.T.,.UNSPECIFIED.);
#230=GEOMETRIC_CURVE_SET(' ',(#199,#204,#209,#214,#219,#224,#229));
#231=GEOMETRICALLY_BOUNDED_WIREFRAME_SHAPE_REPRESENTATION('',(#230,#23),#18);
#232=APPROVAL_ROLE ( 'APPROVER' ) ;
#233=APPROVAL_STATUS ( 'approved' ) ;
#234=APPROVAL ( #233, 'UNSPECIFIED' ) ;
#235=APPROVAL_DATE_TIME ( #5, #234 ) ;
#236=PERSON_AND_ORGANIZATION_ROLE ('design_owner') ;
#237=PERSON_AND_ORGANIZATION_ROLE ('creator') ;
#238=PERSON_AND_ORGANIZATION_ROLE ('design_supplier') ;
#239=PERSON_AND_ORGANIZATION_ROLE ('classification_officer') ;
#240=PERSON ( 'UNSPECIFIED', 'UNSPECIFIED', 'UNSPECIFIED', ('UNSPECIFIED'), ('UNSPECIFIED'), ('UNSPECIFIED') ) ;
#241=ORGANIZATION ( 'UNSPECIFIED', 'UNSPECIFIED', '' ) ;
#242=PERSON_AND_ORGANIZATION ( #240, #241 ) ;
#243=APPROVAL_PERSON_ORGANIZATION ( #242, #234, #232 ) ;
#244=SECURITY_CLASSIFICATION_LEVEL ( 'unclassified' ) ;
#245=SECURITY_CLASSIFICATION ( ' ', ' ', #244 ) ;
#246=CC_DESIGN_APPROVAL ( #234, (#245)) ;
#247=CC_DESIGN_DATE_AND_TIME_ASSIGNMENT ( #5, #19 ,(#245)) ;
#248=CC_DESIGN_PERSON_AND_ORGANIZATION_ASSIGNMENT (#242, #239, (#245)) ;
#249=PRODUCT('', '', ' ',(#2));
#250=PRODUCT_DEFINITION_FORMATION_WITH_SPECIFIED_SOURCE (' ', ' ', #249, .NOT_KNOWN.) ;
#251=CC_DESIGN_APPROVAL ( #234, (#250)) ;
#252=CC_DESIGN_PERSON_AND_ORGANIZATION_ASSIGNMENT (#242, #237, (#250)) ;
#253=CC_DESIGN_PERSON_AND_ORGANIZATION_ASSIGNMENT (#242, #238, (#250)) ;
#254=CC_DESIGN_SECURITY_CLASSIFICATION ( #245, (#250) ) ;
#255=CC_DESIGN_PERSON_AND_ORGANIZATION_ASSIGNMENT (#242, #236, (#249)) ;
#256=PRODUCT_CATEGORY('part','') ;
#257=PRODUCT_RELATED_PRODUCT_CATEGORY('detail', ' ', (#249)) ;
#258=PRODUCT_CATEGORY_RELATIONSHIP(' ', ' ', #256, #257);
#259=PRODUCT_DEFINITION('', '', #250, #1);
#260=PRODUCT_DEFINITION_SHAPE('NONE', 'NONE', #259);
#261=CC_DESIGN_DATE_AND_TIME_ASSIGNMENT ( #5, #6 ,(#259)) ;
#262=CC_DESIGN_APPROVAL ( #234, (#259)) ;
#263=CC_DESIGN_PERSON_AND_ORGANIZATION_ASSIGNMENT (#242, #237, (#259)) ;
#264=SHAPE_DEFINITION_REPRESENTATION(#260, #231);
#265=PRESENTATION_LAYER_ASSIGNMENT('','SketchLevel [2000]',(#199,#204,#209,#214,#219,#224,#229));
#266=PRESENTATION_LAYER_ASSIGNMENT('','Unnamed [1]',(#160));
ENDSEC;
END-ISO-10303-21;
