ISO-10303-21;
HEADER;
FILE_DESCRIPTION(('Beschreibung'),'1');
FILE_NAME('V:/Ziel/25.80.01.103_SDR_11_PE100_225.STP', '2014-09-15T06:00:11',('Author'), ('Organization'), 'KCM Version 1.1.794.0', 'Kubotek KeyCreator', 'Authorization');
FILE_SCHEMA(('CONFIG_CONTROL_DESIGN'));
ENDSEC;
DATA;
#1=DESIGN_CONTEXT('',#4,'design');
#2=MECHANICAL_CONTEXT('',#4,'mechanical');
#3=APPLICATION_PROTOCOL_DEFINITION('INTERNATIONAL STANDARD','config_control_design',1994,#4);
#4=APPLICATION_CONTEXT('CONFIGURATION CONTROLLED 3D DESIGNS OF MECHANICAL PARTS AND ASSEMBLIES');
#5=DATE_AND_TIME(#8,#9);
#6=DATE_TIME_ROLE('creation_date');
#7=COORDINATED_UNIVERSAL_TIME_OFFSET(5,30,.AHEAD.);
#8=CALENDAR_DATE(2014,9,15);
#9=LOCAL_TIME(06,00,11.0,#7);
#10=DIMENSIONAL_EXPONENTS(1.0,0.0,0.0,0.0,0.0,0.0,0.0);
#11=DIMENSIONAL_EXPONENTS(0.0,0.0,0.0,0.0,0.0,0.0,0.0);
#12= (NAMED_UNIT(#10)LENGTH_UNIT()SI_UNIT(.MILLI.,.METRE.));
#13= (NAMED_UNIT(#11)PLANE_ANGLE_UNIT()SI_UNIT($,.RADIAN.));
#14= (NAMED_UNIT(#11)SOLID_ANGLE_UNIT()SI_UNIT($,.STERADIAN.));
#15=LENGTH_MEASURE_WITH_UNIT(LENGTH_MEASURE(1.0),#12);
#16= (CONVERSION_BASED_UNIT('MILLIMETRE',#15)LENGTH_UNIT()NAMED_UNIT(#10));
#17=UNCERTAINTY_MEASURE_WITH_UNIT(LENGTH_MEASURE(1.0E-006),#16,'','');
#18= (GEOMETRIC_REPRESENTATION_CONTEXT(3)GLOBAL_UNCERTAINTY_ASSIGNED_CONTEXT((#17))GLOBAL_UNIT_ASSIGNED_CONTEXT((#16,#13,#14))REPRESENTATION_CONTEXT('NONE','WORKSPACE'));
#19=DATE_TIME_ROLE('classification_date');
#20=CARTESIAN_POINT('',(0.000000000000000,0.000000000000000,0.000000000000000));
#21=DIRECTION('',(0.000000000000000,0.000000000000000,1.00000000000000));
#22=DIRECTION('',(1.00000000000000,0.000000000000000,0.000000000000000));
#23=AXIS2_PLACEMENT_3D('',#20,#21,#22);
#24=CARTESIAN_POINT('',(32.5000000000000,134.000000000000,0.000000000000000));
#25=VERTEX_POINT('',#24);
#26=CARTESIAN_POINT('',(32.5000000000000,0.000000000000000,0.000000000000000));
#27=DIRECTION('',(1.00000000000000,0.000000000000000,0.000000000000000));
#28=DIRECTION('',(0.000000000000000,1.00000000000000,0.000000000000000));
#29=AXIS2_PLACEMENT_3D('',#26,#27,#28);
#30=CIRCLE('',#29,134.000000000000);
#31=EDGE_CURVE('',#25,#25,#30,.T.);
#32=ORIENTED_EDGE('',*,*,#31,.F.);
#33=CARTESIAN_POINT('',(0.000000000000000,134.000000000000,0.000000000000000));
#34=VERTEX_POINT('',#33);
#35=CARTESIAN_POINT('',(16.2500000000000,134.000000000000,0.000000000000000));
#36=DIRECTION('',(1.00000000000000,0.000000000000000,0.000000000000000));
#37=VECTOR('',#36,134.000000000000);
#38=LINE('',#35,#37);
#39=EDGE_CURVE('',#34,#25,#38,.T.);
#40=ORIENTED_EDGE('',*,*,#39,.F.);
#41=CARTESIAN_POINT('',(0.000000000000000,0.000000000000000,0.000000000000000));
#42=DIRECTION('',(1.00000000000000,0.000000000000000,0.000000000000000));
#43=DIRECTION('',(0.000000000000000,1.00000000000000,0.000000000000000));
#44=AXIS2_PLACEMENT_3D('',#41,#42,#43);
#45=CIRCLE('',#44,134.000000000000);
#46=EDGE_CURVE('',#34,#34,#45,.T.);
#47=ORIENTED_EDGE('',*,*,#46,.T.);
#48=ORIENTED_EDGE('',*,*,#39,.T.);
#49=EDGE_LOOP('',(#32,#40,#47,#48));
#50=FACE_OUTER_BOUND('',#49,.T.);
#51=CARTESIAN_POINT('',(16.2500000000000,0.000000000000000,0.000000000000000));
#52=DIRECTION('',(1.00000000000000,0.000000000000000,0.000000000000000));
#53=DIRECTION('',(0.000000000000000,1.00000000000000,0.000000000000000));
#54=AXIS2_PLACEMENT_3D('',#51,#52,#53);
#55=CYLINDRICAL_SURFACE('',#54,134.000000000000);
#56=ADVANCED_FACE('',(#50),#55,.T.);
#57=ORIENTED_EDGE('',*,*,#31,.T.);
#58=EDGE_LOOP('',(#57));
#59=FACE_OUTER_BOUND('',#58,.T.);
#60=CARTESIAN_POINT('',(32.5000000000000,117.500000000000,0.000000000000000));
#61=VERTEX_POINT('',#60);
#62=CARTESIAN_POINT('',(32.5000000000000,0.000000000000000,0.000000000000000));
#63=DIRECTION('',(1.00000000000000,0.000000000000000,0.000000000000000));
#64=DIRECTION('',(0.000000000000000,1.00000000000000,0.000000000000000));
#65=AXIS2_PLACEMENT_3D('',#62,#63,#64);
#66=CIRCLE('',#65,117.500000000000);
#67=EDGE_CURVE('',#61,#61,#66,.T.);
#68=ORIENTED_EDGE('',*,*,#67,.F.);
#69=EDGE_LOOP('',(#68));
#70=FACE_BOUND('',#69,.T.);
#71=CARTESIAN_POINT('',(32.5000000000000,125.750000000000,0.000000000000000));
#72=DIRECTION('',(1.00000000000000,0.000000000000000,0.000000000000000));
#73=DIRECTION('',(-0.000000000000000,1.00000000000000,-0.000000000000000));
#74=AXIS2_PLACEMENT_3D('',#71,#72,#73);
#75=PLANE('',#74);
#76=ADVANCED_FACE('',(#59,#70),#75,.T.);
#77=CARTESIAN_POINT('',(62.5000000000000,112.500000000000,0.000000000000000));
#78=VERTEX_POINT('',#77);
#79=CARTESIAN_POINT('',(62.5000000000000,0.000000000000000,0.000000000000000));
#80=DIRECTION('',(1.00000000000000,0.000000000000000,0.000000000000000));
#81=DIRECTION('',(0.000000000000000,1.00000000000000,0.000000000000000));
#82=AXIS2_PLACEMENT_3D('',#79,#80,#81);
#83=CIRCLE('',#82,112.500000000000);
#84=EDGE_CURVE('',#78,#78,#83,.T.);
#85=ORIENTED_EDGE('',*,*,#84,.F.);
#86=CARTESIAN_POINT('',(47.5000000000000,115.000000000000,0.000000000000000));
#87=DIRECTION('',(0.986393923832144,-0.164398987305357,0.000000000000000));
#88=VECTOR('',#87,115.000000000000);
#89=LINE('',#86,#88);
#90=EDGE_CURVE('',#61,#78,#89,.T.);
#91=ORIENTED_EDGE('',*,*,#90,.F.);
#92=ORIENTED_EDGE('',*,*,#67,.T.);
#93=ORIENTED_EDGE('',*,*,#90,.T.);
#94=EDGE_LOOP('',(#85,#91,#92,#93));
#95=FACE_OUTER_BOUND('',#94,.T.);
#96=CARTESIAN_POINT('',(47.5000000000000,0.000000000000000,0.000000000000000));
#97=DIRECTION('',(-1.00000000000000,-0.000000000000000,-0.000000000000000));
#98=DIRECTION('',(0.000000000000000,1.00000000000000,0.000000000000000));
#99=AXIS2_PLACEMENT_3D('',#96,#97,#98);
#100=CONICAL_SURFACE('',#99,115.000000000000,0.165148677414627);
#101=ADVANCED_FACE('',(#95),#100,.T.);
#102=CARTESIAN_POINT('',(213.000000000000,112.500000000000,0.000000000000000));
#103=VERTEX_POINT('',#102);
#104=CARTESIAN_POINT('',(213.000000000000,0.000000000000000,0.000000000000000));
#105=DIRECTION('',(1.00000000000000,0.000000000000000,0.000000000000000));
#106=DIRECTION('',(0.000000000000000,1.00000000000000,0.000000000000000));
#107=AXIS2_PLACEMENT_3D('',#104,#105,#106);
#108=CIRCLE('',#107,112.500000000000);
#109=EDGE_CURVE('',#103,#103,#108,.T.);
#110=ORIENTED_EDGE('',*,*,#109,.F.);
#111=CARTESIAN_POINT('',(137.750000000000,112.500000000000,0.000000000000000));
#112=DIRECTION('',(1.00000000000000,0.000000000000000,0.000000000000000));
#113=VECTOR('',#112,112.500000000000);
#114=LINE('',#111,#113);
#115=EDGE_CURVE('',#78,#103,#114,.T.);
#116=ORIENTED_EDGE('',*,*,#115,.F.);
#117=ORIENTED_EDGE('',*,*,#84,.T.);
#118=ORIENTED_EDGE('',*,*,#115,.T.);
#119=EDGE_LOOP('',(#110,#116,#117,#118));
#120=FACE_OUTER_BOUND('',#119,.T.);
#121=CARTESIAN_POINT('',(137.750000000000,0.000000000000000,0.000000000000000));
#122=DIRECTION('',(1.00000000000000,0.000000000000000,0.000000000000000));
#123=DIRECTION('',(0.000000000000000,1.00000000000000,0.000000000000000));
#124=AXIS2_PLACEMENT_3D('',#121,#122,#123);
#125=CYLINDRICAL_SURFACE('',#124,112.500000000000);
#126=ADVANCED_FACE('',(#120),#125,.T.);
#127=ORIENTED_EDGE('',*,*,#109,.T.);
#128=EDGE_LOOP('',(#127));
#129=FACE_OUTER_BOUND('',#128,.T.);
#130=CARTESIAN_POINT('',(213.000000000000,92.0000000000000,0.000000000000000));
#131=VERTEX_POINT('',#130);
#132=CARTESIAN_POINT('',(213.000000000000,0.000000000000000,0.000000000000000));
#133=DIRECTION('',(1.00000000000000,0.000000000000000,0.000000000000000));
#134=DIRECTION('',(0.000000000000000,1.00000000000000,0.000000000000000));
#135=AXIS2_PLACEMENT_3D('',#132,#133,#134);
#136=CIRCLE('',#135,92.0000000000000);
#137=EDGE_CURVE('',#131,#131,#136,.T.);
#138=ORIENTED_EDGE('',*,*,#137,.F.);
#139=EDGE_LOOP('',(#138));
#140=FACE_BOUND('',#139,.T.);
#141=CARTESIAN_POINT('',(213.000000000000,102.250000000000,0.000000000000000));
#142=DIRECTION('',(1.00000000000000,0.000000000000000,0.000000000000000));
#143=DIRECTION('',(-0.000000000000000,1.00000000000000,-0.000000000000000));
#144=AXIS2_PLACEMENT_3D('',#141,#142,#143);
#145=PLANE('',#144);
#146=ADVANCED_FACE('',(#129,#140),#145,.T.);
#147=ORIENTED_EDGE('',*,*,#137,.T.);
#148=CARTESIAN_POINT('',(0.000000000000000,92.0000000000000,0.000000000000000));
#149=VERTEX_POINT('',#148);
#150=CARTESIAN_POINT('',(106.500000000000,92.0000000000000,0.000000000000000));
#151=DIRECTION('',(1.00000000000000,0.000000000000000,0.000000000000000));
#152=VECTOR('',#151,92.0000000000000);
#153=LINE('',#150,#152);
#154=EDGE_CURVE('',#149,#131,#153,.T.);
#155=ORIENTED_EDGE('',*,*,#154,.F.);
#156=CARTESIAN_POINT('',(0.000000000000000,0.000000000000000,0.000000000000000));
#157=DIRECTION('',(1.00000000000000,0.000000000000000,0.000000000000000));
#158=DIRECTION('',(0.000000000000000,1.00000000000000,0.000000000000000));
#159=AXIS2_PLACEMENT_3D('',#156,#157,#158);
#160=CIRCLE('',#159,92.0000000000000);
#161=EDGE_CURVE('',#149,#149,#160,.T.);
#162=ORIENTED_EDGE('',*,*,#161,.F.);
#163=ORIENTED_EDGE('',*,*,#154,.T.);
#164=EDGE_LOOP('',(#147,#155,#162,#163));
#165=FACE_OUTER_BOUND('',#164,.T.);
#166=CARTESIAN_POINT('',(106.500000000000,0.000000000000000,0.000000000000000));
#167=DIRECTION('',(1.00000000000000,0.000000000000000,0.000000000000000));
#168=DIRECTION('',(0.000000000000000,1.00000000000000,0.000000000000000));
#169=AXIS2_PLACEMENT_3D('',#166,#167,#168);
#170=CYLINDRICAL_SURFACE('',#169,92.0000000000000);
#171=ADVANCED_FACE('',(#165),#170,.F.);
#172=ORIENTED_EDGE('',*,*,#46,.F.);
#173=EDGE_LOOP('',(#172));
#174=FACE_OUTER_BOUND('',#173,.T.);
#175=ORIENTED_EDGE('',*,*,#161,.T.);
#176=EDGE_LOOP('',(#175));
#177=FACE_BOUND('',#176,.T.);
#178=CARTESIAN_POINT('',(0.000000000000000,113.000000000000,0.000000000000000));
#179=DIRECTION('',(-1.00000000000000,0.000000000000000,0.000000000000000));
#180=DIRECTION('',(-0.000000000000000,-1.00000000000000,-0.000000000000000));
#181=AXIS2_PLACEMENT_3D('',#178,#179,#180);
#182=PLANE('',#181);
#183=ADVANCED_FACE('',(#174,#177),#182,.T.);
#184=CLOSED_SHELL('',(#56,#76,#101,#126,#146,#171,#183));
#185=MANIFOLD_SOLID_BREP('',#184);
#186=ADVANCED_BREP_SHAPE_REPRESENTATION('',(#185,#23),#18);
#187=APPROVAL_ROLE ( 'APPROVER' ) ;
#188=APPROVAL_STATUS ( 'approved' ) ;
#189=APPROVAL ( #188, 'UNSPECIFIED' ) ;
#190=APPROVAL_DATE_TIME ( #5, #189 ) ;
#191=PERSON_AND_ORGANIZATION_ROLE ('design_owner') ;
#192=PERSON_AND_ORGANIZATION_ROLE ('creator') ;
#193=PERSON_AND_ORGANIZATION_ROLE ('design_supplier') ;
#194=PERSON_AND_ORGANIZATION_ROLE ('classification_officer') ;
#195=PERSON ( 'UNSPECIFIED', 'UNSPECIFIED', 'UNSPECIFIED', ('UNSPECIFIED'), ('UNSPECIFIED'), ('UNSPECIFIED') ) ;
#196=ORGANIZATION ( 'UNSPECIFIED', 'UNSPECIFIED', '' ) ;
#197=PERSON_AND_ORGANIZATION ( #195, #196 ) ;
#198=APPROVAL_PERSON_ORGANIZATION ( #197, #189, #187 ) ;
#199=SECURITY_CLASSIFICATION_LEVEL ( 'unclassified' ) ;
#200=SECURITY_CLASSIFICATION ( ' ', ' ', #199 ) ;
#201=CC_DESIGN_APPROVAL ( #189, (#200)) ;
#202=CC_DESIGN_DATE_AND_TIME_ASSIGNMENT ( #5, #19 ,(#200)) ;
#203=CC_DESIGN_PERSON_AND_ORGANIZATION_ASSIGNMENT (#197, #194, (#200)) ;
#204=PRODUCT('', '', ' ',(#2));
#205=PRODUCT_DEFINITION_FORMATION_WITH_SPECIFIED_SOURCE (' ', ' ', #204, .NOT_KNOWN.) ;
#206=CC_DESIGN_APPROVAL ( #189, (#205)) ;
#207=CC_DESIGN_PERSON_AND_ORGANIZATION_ASSIGNMENT (#197, #192, (#205)) ;
#208=CC_DESIGN_PERSON_AND_ORGANIZATION_ASSIGNMENT (#197, #193, (#205)) ;
#209=CC_DESIGN_SECURITY_CLASSIFICATION ( #200, (#205) ) ;
#210=CC_DESIGN_PERSON_AND_ORGANIZATION_ASSIGNMENT (#197, #191, (#204)) ;
#211=PRODUCT_CATEGORY('part','') ;
#212=PRODUCT_RELATED_PRODUCT_CATEGORY('detail', ' ', (#204)) ;
#213=PRODUCT_CATEGORY_RELATIONSHIP(' ', ' ', #211, #212);
#214=PRODUCT_DEFINITION('', '', #205, #1);
#215=PRODUCT_DEFINITION_SHAPE('NONE', 'NONE', #214);
#216=CC_DESIGN_DATE_AND_TIME_ASSIGNMENT ( #5, #6 ,(#214)) ;
#217=CC_DESIGN_APPROVAL ( #189, (#214)) ;
#218=CC_DESIGN_PERSON_AND_ORGANIZATION_ASSIGNMENT (#197, #192, (#214)) ;
#219=SHAPE_DEFINITION_REPRESENTATION(#215, #186);
#220=CARTESIAN_POINT('',(0.000000000000000,92.0000000000000,0.000000000000000));
#221=DIRECTION('',(0.000000000000000,1.00000000000000,0.000000000000000));
#222=VECTOR('',#221,1.00000000000000);
#223=LINE('',#220,#222);
#224=TRIMMED_CURVE('',#223,(PARAMETER_VALUE(0.000000000000000)),(PARAMETER_VALUE(42.0000000000000)),.T.,.UNSPECIFIED.);
#225=CARTESIAN_POINT('',(0.000000000000000,134.000000000000,0.000000000000000));
#226=DIRECTION('',(1.00000000000000,0.000000000000000,0.000000000000000));
#227=VECTOR('',#226,1.00000000000000);
#228=LINE('',#225,#227);
#229=TRIMMED_CURVE('',#228,(PARAMETER_VALUE(0.000000000000000)),(PARAMETER_VALUE(32.5000000000000)),.T.,.UNSPECIFIED.);
#230=CARTESIAN_POINT('',(32.5000000000000,134.000000000000,0.000000000000000));
#231=DIRECTION('',(0.000000000000000,-1.00000000000000,0.000000000000000));
#232=VECTOR('',#231,1.00000000000000);
#233=LINE('',#230,#232);
#234=TRIMMED_CURVE('',#233,(PARAMETER_VALUE(0.000000000000000)),(PARAMETER_VALUE(16.5000000000000)),.T.,.UNSPECIFIED.);
#235=CARTESIAN_POINT('',(32.5000000000000,117.500000000000,0.000000000000000));
#236=DIRECTION('',(0.986393923832144,-0.164398987305357,0.000000000000000));
#237=VECTOR('',#236,1.00000000000000);
#238=LINE('',#235,#237);
#239=TRIMMED_CURVE('',#238,(PARAMETER_VALUE(0.000000000000000)),(PARAMETER_VALUE(30.4138126514911)),.T.,.UNSPECIFIED.);
#240=CARTESIAN_POINT('',(62.5000000000000,112.500000000000,0.000000000000000));
#241=DIRECTION('',(1.00000000000000,0.000000000000000,0.000000000000000));
#242=VECTOR('',#241,1.00000000000000);
#243=LINE('',#240,#242);
#244=TRIMMED_CURVE('',#243,(PARAMETER_VALUE(0.000000000000000)),(PARAMETER_VALUE(150.500000000000)),.T.,.UNSPECIFIED.);
#245=CARTESIAN_POINT('',(213.000000000000,112.500000000000,0.000000000000000));
#246=DIRECTION('',(0.000000000000000,-1.00000000000000,0.000000000000000));
#247=VECTOR('',#246,1.00000000000000);
#248=LINE('',#245,#247);
#249=TRIMMED_CURVE('',#248,(PARAMETER_VALUE(0.000000000000000)),(PARAMETER_VALUE(20.5000000000000)),.T.,.UNSPECIFIED.);
#250=CARTESIAN_POINT('',(213.000000000000,92.0000000000000,0.000000000000000));
#251=DIRECTION('',(-1.00000000000000,0.000000000000000,0.000000000000000));
#252=VECTOR('',#251,1.00000000000000);
#253=LINE('',#250,#252);
#254=TRIMMED_CURVE('',#253,(PARAMETER_VALUE(0.000000000000000)),(PARAMETER_VALUE(213.000000000000)),.T.,.UNSPECIFIED.);
#255=GEOMETRIC_CURVE_SET(' ',(#224,#229,#234,#239,#244,#249,#254));
#256=GEOMETRICALLY_BOUNDED_WIREFRAME_SHAPE_REPRESENTATION('',(#255,#23),#18);
#257=APPROVAL_ROLE ( 'APPROVER' ) ;
#258=APPROVAL_STATUS ( 'approved' ) ;
#259=APPROVAL ( #258, 'UNSPECIFIED' ) ;
#260=APPROVAL_DATE_TIME ( #5, #259 ) ;
#261=PERSON_AND_ORGANIZATION_ROLE ('design_owner') ;
#262=PERSON_AND_ORGANIZATION_ROLE ('creator') ;
#263=PERSON_AND_ORGANIZATION_ROLE ('design_supplier') ;
#264=PERSON_AND_ORGANIZATION_ROLE ('classification_officer') ;
#265=PERSON ( 'UNSPECIFIED', 'UNSPECIFIED', 'UNSPECIFIED', ('UNSPECIFIED'), ('UNSPECIFIED'), ('UNSPECIFIED') ) ;
#266=ORGANIZATION ( 'UNSPECIFIED', 'UNSPECIFIED', '' ) ;
#267=PERSON_AND_ORGANIZATION ( #265, #266 ) ;
#268=APPROVAL_PERSON_ORGANIZATION ( #267, #259, #257 ) ;
#269=SECURITY_CLASSIFICATION_LEVEL ( 'unclassified' ) ;
#270=SECURITY_CLASSIFICATION ( ' ', ' ', #269 ) ;
#271=CC_DESIGN_APPROVAL ( #259, (#270)) ;
#272=CC_DESIGN_DATE_AND_TIME_ASSIGNMENT ( #5, #19 ,(#270)) ;
#273=CC_DESIGN_PERSON_AND_ORGANIZATION_ASSIGNMENT (#267, #264, (#270)) ;
#274=PRODUCT('', '', ' ',(#2));
#275=PRODUCT_DEFINITION_FORMATION_WITH_SPECIFIED_SOURCE (' ', ' ', #274, .NOT_KNOWN.) ;
#276=CC_DESIGN_APPROVAL ( #259, (#275)) ;
#277=CC_DESIGN_PERSON_AND_ORGANIZATION_ASSIGNMENT (#267, #262, (#275)) ;
#278=CC_DESIGN_PERSON_AND_ORGANIZATION_ASSIGNMENT (#267, #263, (#275)) ;
#279=CC_DESIGN_SECURITY_CLASSIFICATION ( #270, (#275) ) ;
#280=CC_DESIGN_PERSON_AND_ORGANIZATION_ASSIGNMENT (#267, #261, (#274)) ;
#281=PRODUCT_CATEGORY('part','') ;
#282=PRODUCT_RELATED_PRODUCT_CATEGORY('detail', ' ', (#274)) ;
#283=PRODUCT_CATEGORY_RELATIONSHIP(' ', ' ', #281, #282);
#284=PRODUCT_DEFINITION('', '', #275, #1);
#285=PRODUCT_DEFINITION_SHAPE('NONE', 'NONE', #284);
#286=CC_DESIGN_DATE_AND_TIME_ASSIGNMENT ( #5, #6 ,(#284)) ;
#287=CC_DESIGN_APPROVAL ( #259, (#284)) ;
#288=CC_DESIGN_PERSON_AND_ORGANIZATION_ASSIGNMENT (#267, #262, (#284)) ;
#289=SHAPE_DEFINITION_REPRESENTATION(#285, #256);
#290=PRESENTATION_LAYER_ASSIGNMENT('','SketchLevel [2000]',(#224,#229,#234,#239,#244,#249,#254));
#291=PRESENTATION_LAYER_ASSIGNMENT('','Unnamed [1]',(#185));
ENDSEC;
END-ISO-10303-21;
